homonosapiens

jueves, 14 de agosto de 2008

Tablatura para guitarra: Extremoduro - Puta

[0:20]

Riff 1 (1º parte)
e||---------------------------------------------------------------------||
B||--------------------------------------------------------5------------||
G||*---------------------------------------------------------5-------3-*||
D||*----5------5------4------4------4/5------5------5----------5---3---*||
A||-0-0-3--0-0-3--0-0-2--0-0-2--0-0-2/3--0-0-3--0-0-3--0-0-------3------||
E||---------------------------------------------------------------------||


Riff 1 (2º parte)
e||---------------------------------------------------------------|
B||---------------------------------------------------------------|
G||---------------------------------------------------------------|
D||-----5------5------7------7(8)------5------5------4------4(5)--|
A||-0-0-3--0-0-3--0-0-5--0-0-5(6)--0-0-3--0-0-3--0-0-2--0-0-2(3)--|
E||---------------------------------------------------------------|

e|-------------------------------------------------------------------||
B|-------------------------------------------------------------------||
G|-------------------------------------------------------------------||
D|-----5------5------7------7(8)------5------5------4------4-2h4p2---||
A|-0-0-3--0-0-3--0-0-5--0-0-5(6)--0-0-3--0-0-3--0-0-2--0-0-2-------4-||
E|-------------------------------------------------------------------||


[0:58]

Gtr 1_(Uoho)
e||---------------------------|-----------|--------------------------|--------------||
B||---------------------------|-----------|--------------------------|-6-5----------||
G||*-7(9)(7)p6p5h7(9)p6p5h7---|-----5-7-5-|-7(9)(7)p6p5h7(9)p6p5h7---|-----7-5-7-9-*||
D||*------------------------7-|-5-7-------|------------------------7-|-------------*||
A||---------------------------|-----------|--------------------------|--------------||
E||---------------------------|-----------|--------------------------|--------------||
|| |PM.........| | ||
|| | | | ||
||Gtr 2_(Robe) | | | ||
e||---------------------------|-----------|--------------------------|--------------||
B||---------------------------|-----------|--------------------------|--------------||
G||*--------------------------|-----------|--------------------------|-------------*||
D||*-----5-------5-------5----|--7--7--7--|-----5------5------5------|----4----2---*||
A||------3-------3-------3----|--5--5--5--|-----3------3------3------|----2----0----||
E||---------------------------|-----------|--------------------------|--------------||

[1:07]

e|-------------------------------------------|
B|-------------------------------------------|Casi que a la fuerza recorro las horas
G|*-----------------------------------------*|y no me encuentro el día si no encuentro su boca
D|*-----7----7---5-5------5---5-------7---7-*|diciendo ¡venga, venga, que me vuelvo loca!
A|--0-0-5--0-5---3-3--0-0-3-0-3-0-0-0-5-0-5--|Y ando entre su pelo y hay un agujero;
E|-------------------------------------------|
PM...................
e|------------|
B|------------|
e|------------|me subo a las estrellas
B|--5---5--4--|y me tiro de cabeza
e|--3---3--2--|
B|------------|

[1:20]

e||-------------------------------|---------------------||
B||-------------------------------|---------------------||
G||-------------------------------|---------------------||
D||------5---5-----4---4-2h4p2----|------5---7---5---4--||
A||--0-0-3-0-3-0-0-2-0-2-------4--|--0-0-3-0-5-0-3-0-2--||
E||-------------------------------|---------------------||

[1:26]

e||------------------------------|------------------------------||
B||------------------------------|------------------------------||
G||------------------------------|------------------------------||
D||--5-5-5--7-7-7--5-5-5--4-4-4--|--5-5-5--7-7-7--5-5-5--4-4-4--||
A||--3-3-3--5-5-5--3-3-3--2-2-2--|--3-3-3--5-5-5--3-3-3--2-2-2--||
E||------------------------------|------------------------------||
Subí al árbol más alto que tiene la alameda
y vi miles de ojos dentro de mis tinieblas
Nosotras no las vemos las hormigas comentan
Y el caracol: mi vista solo alcanza las hierbas

[1:34]

e||---------------------------------------------------||
B||---------------------------------------------------||
G||---------------------------------------------------||
D||--5---5-7---7-5---5-4---4--5-5-5--7-7-7--9-9-9--7--||
A||--3---3-5---5-3---3-2---2--3-3-3--5-5-5--7-7-7--5--||
E||---------------------------------------------------||
Que nada me interesa de alrededor
y me subo a lo más alto de la locura
me encuentro a mi princesa hablando con la luna
echándose carreras a ver quién es más...

PUTA

[1:46]

Gtr 1_(Uoho)
e||---------------------------|-----------|--------------------------|--------------||
B||---------------------------|-----------|--------------------------|-6-5----------||
G||*-7(9)(7)p6p5h7(9)p6p5h7---|-----5-7-5-|-7(9)(7)p6p5h7(9)p6p5h7---|-----7-5-7-9-*||
D||*------------------------7-|-5-7-------|------------------------7-|-------------*||
A||---------------------------|-----------|--------------------------|--------------||
E||---------------------------|-----------|--------------------------|--------------||
|| |PM.........| | ||
|| | | | ||
||Gtr 2_(Robe) | | | ||
e||---------------------------|-----------|--------------------------|--------------||
B||---------------------------|-----------|--------------------------|--------------||
G||*--------------------------|-----------|--------------------------|-------------*||
D||*-----5-------5-------5----|--7--7--7--|-----5------5------5------|----4----2---*||
A||------3-------3-------3----|--5--5--5--|-----3------3------3------|----2----0----||
E||---------------------------|-----------|--------------------------|--------------||

[1:56]

e|------------------------------------------------------------------------------|
B|------------------------------------------------------------------------------|
G|*----------9---------------7----------------6---------------5----------------*|
D|*----------------------------------------------------------------------------*|
A|------------------------------------------------------------------------------|
E|------------------------------------------------------------------------------|
Que no me da la gana pasar media vida buscando esa frase que tal vez no exista

e|-------------------------------------------|
B|-------------------------------------------|
G|*-----------------------------------------*|¡No me mira! ¿Y que cojones puedo decir?
D|*-----7----7---5-5------5---5-------7---7-*|Mi perro ya no quiere la comida
A|--0-0-5--0-5---3-3--0-0-3-0-3-0-0-0-5-0-5--|y en mi cabeza paso el día buscándote
E|-------------------------------------------|
PM...................

[2:11]
e||--------------------------------------||
B||--------------------------------------||Llego a tus rincones llenos de flores
G||*------------------------------------*||y por mis esquinas llenas de colores
D||*--5--5--4-4-5--7----7--7--5-7-5--4--*||se ha desbocao la primavera
A||---3--3--2-2-3--5----5--5--3-5-3--2---||la noche entera
E||--------------------------------------||

[2:32]
e||-----------------------------------|--------------------------||
B||-----------------------------------|--------------------------||
G||-----------------------------------|--------------------------||
D||------5-----7-----5-----4-2h4p2----|-----5-----7-----5-----4--||
A||--0-0-3-0-0-5-0-0-3-0-0-2-------4--|-0-0-3-0-0-5-0-0-3-0-0-2--||
E||-----------------------------------|--------------------------||

[2:37]

Gtr 1_(Uoho)
e||---------------------------|-----------|--------------------------|--------------||
B||---------------------------|-----------|--------------------------|-6-5----------||
G||*-7(9)(7)p6p5h7(9)p6p5h7---|-----5-7-5-|-7(9)(7)p6p5h7(9)p6p5h7---|-----7-5-7-9-*||
D||*------------------------7-|-5-7-------|------------------------7-|-------------*||
A||---------------------------|-----------|--------------------------|--------------||
E||---------------------------|-----------|--------------------------|--------------||
|| |PM.........| | ||
|| | | | ||
||Gtr 2_(Robe) | | | ||
e||---------------------------|-----------|--------------------------|--------------||
B||---------------------------|-----------|--------------------------|--------------||
G||*--------------------------|-----------|--------------------------|-------------*||
D||*-----5-------5-------5----|--7--7--7--|-----5------5------5------|----4----2---*||
A||------3-------3-------3----|--5--5--5--|-----3------3------3------|----2----0----||
E||---------------------------|-----------|--------------------------|--------------||

[2:47]

e|------------------------------------------------------------------------------|
B|------------------------------------------------------------------------------|
G|*----------9---------------7----------------6---------------5----------------*|
D|*----------------------------------------------------------------------------*|
A|------------------------------------------------------------------------------|
E|------------------------------------------------------------------------------|
Bebo de una fuente caliente caliente y vuelvo a ver al hada que nunca me abandona
Cuando no estoy contigo domestico las horas y hago que den brincos y hago que corran

[2:57]

Que no me da la gana pasar media vida buscando esa droga que tal vez no exista

[3:03]

e|-------------------------------------------|
B|-------------------------------------------|¡No me mira el sol que no me mira
G|*-----------------------------------------*|si no me viene a ver una sonrisa!
D|*-----7----7---5-5------5---5-------7---7-*|y se me sale dando pedales
A|--0-0-5--0-5---3-3--0-0-3-0-3-0-0-0-5-0-5--|sin mi permiso una lagrimilla
E|-------------------------------------------|
PM...................

[3:23]

e||--------------------------------------||
B||--------------------------------------||Llego a tus rincones llenos de flores
G||*------------------------------------*||y por mis esquinas llenas de colores
D||*--5--5--4-4-5--7----7--7--5-7-5--4--*||se ha desbocao la primavera
A||---3--3--2-2-3--5----5--5--3-5-3--2---||la noche entera
E||--------------------------------------||

[]

Esto es lo que hace el Robe durante el solo
e||------------------------------------------|
B||------------------------------------------|
G||------------------------------------------|
D||-----5---5---7---7-7------5---5---4---4-4-|
A||-0-0-3-0-3-0-5-0-5-5--0-0-3-0-3-0-2-0-2-2-|
E||------------------------------------------|



Ahora puedes compartir este artculo en algunas de estas Redes Sociales

Twitter icon Agregar a Blogmarks Agregar a Technorati Agregar a Technorati Agregar a Meneame Agregar a Meneame Agregar a Meneame Agregar a Meneame
Agregar a Meneame Agregar a Del.icio.us Agregar a DiggIt! Agregar a Yahoo! Agregar a Google Agregar a Furl Agregar a Reddit Agregar a Magnolia Agregar a Blinklist Agregar a Blogmarks

1 comentarios:

manolinvicio dijo...

Gracias por colgarla,aunke pienso que estos tipos fueron muy muy buenos en su momento, esperemos que el nuevo disco, si sale..... no nos decepcione mucho.

Publicar un comentario

Al teclado ni una gota de alcohol, TUS opiniones impropias son TU responsabilidad.

Subir